Smaller Normal Large Larger Largest
  Change Text Size  
Broken Down Angle
Nazareth
D
She used to be...
E
...someone you could depend on,

D A E
to brighten up your coldest winter day

B E A
But the one she leaned upon, let her down, now has moved on

E B
And morning brings another empty...

E
...day Now she's...
Chorus:

A B E A B E
...only a broken down angel, she's only a bird that's broke her wing

C#m G#m A B
She's only someone, someone who's gone wrong

A B E
She's only a child that's lost her way


========================================



Dream On
Nazareth

Dream on
Though its hard to tell
Though your foolin' yourself
Dream on,

D
Dream on,
G D
You can hide away
G D
When theres nothing to say
A
So Dream on,

D
Draem on,
G D
Though its hard to tell
G D
Thought your foolin' yourself
A
Dream on,

G D Dsus4 D Dsus2
{You can laugh at me cause I'm cry-ing
{A G D
{You can tell your friends how much I begged you to stay
{A G D Dsus4 D Dsus2
{You can have your fantasys without me
{A G D
{But you'll never know how much I needed you

{Dream on,
{It's so easy for you
{Though I'm broken in two
{Dream on,

{Dream on,
{You can never see
{What your doing to me
{Dream on,

You can cross your heart and still be lyin
You can count the reasons why you've thrown it away
You can dream your life away without me
But you'll never know how much I've needed you

Guitar solo(? later)

(All the { is sung after the guitar solo in that order)

The end, without music

Dream on,
Though its hard to tell
Though your foolin' yourself
Dream on



========================================


Love Hurts
Nazareth

G Em C D
Love hurts, love scars, love wounds and marrs

G Em C D
Any heart not tough nor strong enough

B7 G B7 Em
To take alot of pain, take a lot of pain

C D C
Love is like a cloud, it holds a lot of rain

G
Love hurts

F C G
oooooh oooooh love hurts


I'm young, I know, but even so
I know a thing or two
I learned from you
I really learned a lot, really learned a lot
Love is like a flame, it burns you when it's hot
Love hurts
oooooh oooooh love hurts

Em B7 Em B7 Em B7 Em
Some fools think of happiness, blissfulness, togetherness

A
Some fools fool themselves I guess

Am D
They're not fooling me

C G B7 Em
I know it isn't true, I know it isn't true

B7 C D C
Love is just a lie, made to make you blue

G
Love hurts

F C G
oooooh oooooh love hurts

F C G
oooooh oooooh love hurts

F C
oooooh...oooooh.

G Em C D
Love hurts, love scars, love wounds and marrs

G Em C D
Any heart not tough nor strong enough

B7 G B7 Em
To take alot of pain, take a lot of pain

C D C
Love is like a cloud, it holds a lot of rain

G
Love hurts

F C G
oooooh oooooh love hurts


I'm young, I know, but even so
I know a thing or two
I learned from you
I really learned a lot, really learned a lot
Love is like a flame, it burns you when it's hot
Love hurts
oooooh oooooh love hurts


Em B7 Em B7 Em B7 Em
Some fools think of happiness, blissfulness, togetherness

A
Some fools fool themselves I guess

Am D
They're not fooling me

C G B7 Em
I know it isn't true, I know it isn't true

B7 C D C
Love is just a lie, made to make you blue

G
Love hurts

F C G
oooooh oooooh love hurts

F C G
oooooh oooooh love hurts

F C
oooooh...oooooh.



======================================


======================================

Heart's Grown Cold
Nazareth
Album: Malice In Wonderland
(sent in by: robert bacon... thnx u)

Intro:

Go out and have your habit,
Keep on takin' it
Keep on fakin' it
You're the one whose heart grows cold
You're the one whose heart's grown cold.

Go out and have your habit
You're the one that's takin' it
You're the one that's fakin' it
You're the one whose heart's grown cold
You're the one whose heart's grown cold.

I touch your lips with my fingertips
I hang on every breath you take
You don't need me like,
I need you
You have your heartaches to climb
Everyday, I just hope and pray
I just hope that you still have,
That you still have your dreams

Come down and tell me that it's better
You're the one who's choosin' it
You're the one who's losin' it
You're the one who's got no soul,
You're the one whose heart's grown cold

[G] [C/B] [C] [D]

*****************************************

Intro & Verses:
C C/B
|---7---7-----5--5----3--3-----3--3-----------------------|
|----0---------0-------0--------0----------2---------3----|
|----------------------------------------0---------0------|
|-5---5-----4-------2-------2----------2---------0--------|
|------------------------------------3------3---2------2--|
|---------------------------------------------------------|

Em D C C/B
|------------------------------------------|
|---------8------7-------2------3----------|
|-----9---9-----7-------0------0---0--2----|
|---9-----9----7-------2------0------------|
|-7-----------5---5---3---3--2---2---------|
|---------------------------------------0--|

C C/B G
|-------------------------------3----------|
|-------2---------3--------2---2-----------|
|-----0---------0---------0--0-------------|
|---2---------0----------0-----------------|
|-3------3---2------2----------------------|
|-----------------------3------------------|


============================================

Hearts Growin Cold
Submitted by Robert a fellow Canadian

Intro: {see below} x1

{Play Riff A}
Go out and have your habit,
Keep on takin' it
Keep on fakin' it
You're the one whose heart grows cold
You're the one whose heart's grown cold

{Play Riff A}
Go out and have your habit
You're the one that's takin' it
You're the one that's fakin' it
You're the one whose heart's grown cold
You're the one whose heart's grown cold

Bridge:
C G C G
I touch your lips with my fingertips
C G D*
I hang on every breath you take
You don't need me like, I need you
You have your heartaches to climb

C G Em D
Everyday, I just hope and pray
C Bm D Em
I just hope that you still have,
C Bm D G
That you still have your dreams

Interlude: [G] [Bm] [C] [D*] x2

{Play Riff A}
Come down and tell me that it's better
You're the one who's choosin' it
You're the one who's losin' it
You're the one who's got no soul,
You're the one whose heart's grown cold

Outro: [G] [Bm] [C] [D*] x2

Baby don't you know your heart's grown cold {repeat until red in the face}

*****************************************

Intro & Verses: {Riff A}
C Bm
|---7---7-----5--5----3--3-----3--3-----------------------|
|----0---------0-------0--------0----------2---------3----|
|----------------------------------------0---------4------|
|-5---5-----4-------2-------2----------2----------4-------|
|------------------------------------3------3---2------2--|
|---------------------------------------------------------|

Em D C Bm
|------------------------------------------|
|---------8------7-------2------3----------|
|-----9---9-----7-------0------4---0--2----|
|---9-----9----7-------2------4------------|
|-7-----------5---5---3---3--2---2---------|
|---------------------------------------0--|

C Bm G
|-------------------------------3----------|
|-------2---------3--------2---2-----------|
|-----0---------4---------0--0-------------|
|---2----------4---------0-----------------|
|-3------3---2------2----------------------|
|-----------------------3------------------|

D* = alternate between D and Dsus4 chords

============================================

Sunshine

Play D for about 25 seconds before you start singing.

D
Sunshine, every single day

G
Helps to light my way

D
And darlin', right before my eyes

G
It don't come as no surprise

A
That it's easy
G D A D
Easy lovin' you

D
And baby, 'til you came along

G
There was always something wrong

G
Around me

D
There was emptiness of course

G
But it's alright

A
And it's easy

G D A D
Easy lovin' you

D
And sunshine, having you around

G
You're the light I never found

D
And darlin', every minute you're away

G
But it's brighter

A
And it's easy

G D A D
Easy lovin' you

=====================================

Nazareth

Brought to you by - CPMacDonald